Spotify Chart History

Title: Amigos y Enemigos - Remix
Artists: Trap Capos, Noriel, Bad Bunny, Almighty

Show: Weekly · Daily | Positions · Streams · Both

Date CL AR PE DO PA PY HN SV UY NI
Total 5,354,867 1,016,691 740,224 635,762 293,205 198,553 147,742 98,184 44,769 2,152
Peak 91 (145,076) 177 (106,550) 146 (52,800) 81 (12,034) 120 (8,509) 111 (9,451) 152 (5,905) 166 (5,629) 177 (7,913) 192 (2,152)
2017-02-16------122 (8,516)179 (5,197)----------
2017-02-23------111 (8,852)182 (5,217)----------
2017-03-02------115 (8,894)------------
2017-03-09200 (64,839)----117 (9,421)168 (5,540)----------
2017-03-16163 (74,408)----111 (9,163)149 (6,330)----------
2017-03-23152 (77,021)----129 (8,218)154 (5,938)----------
2017-03-30152 (77,841)----119 (8,594)144 (6,164)----------
2017-04-06151 (78,533)----126 (7,955)144 (6,570)----------
2017-04-13150 (79,051)----132 (8,305)134 (6,756)----------
2017-04-20146 (77,536)----132 (7,396)144 (5,992)----------
2017-04-27143 (79,530)----126 (7,908)146 (6,217)----------
2017-05-04151 (79,984)----119 (8,577)123 (7,063)----------
2017-05-11139 (82,136)----120 (8,527)120 (7,377)----------
2017-05-18147 (79,498)----119 (8,438)139 (6,453)----------
2017-05-25159 (75,478)----129 (8,141)146 (6,410)----------
2017-06-01123 (95,635)----113 (9,098)129 (7,229)--182 (4,833)------
2017-06-08117 (97,479)----113 (9,036)126 (7,524)--165 (5,307)------
2017-06-15113 (102,502)----104 (9,605)132 (6,927)--159 (5,276)------
2017-06-22109 (97,597)----103 (9,656)136 (7,167)--165 (5,172)------
2017-06-29108 (102,598)----91 (11,284)132 (7,166)--167 (5,034)------
2017-07-06103 (113,652)--199 (39,341)81 (11,639)129 (7,687)--160 (5,443)------
2017-07-1399 (118,839)--198 (41,415)81 (11,883)125 (7,949)--163 (5,468)------
2017-07-20102 (116,038)--174 (45,301)86 (12,034)126 (7,700)--152 (5,905)173 (4,862)----
2017-07-27105 (120,642)--161 (48,566)109 (11,767)134 (7,986)--159 (5,749)188 (4,879)----
2017-08-0395 (130,494)--154 (47,515)94 (11,887)125 (8,087)171 (6,652)156 (5,713)175 (4,955)----
2017-08-1091 (135,620)192 (96,887)155 (48,061)91 (11,963)127 (8,184)167 (7,037)163 (5,729)189 (4,413)----
2017-08-1791 (136,833)177 (101,675)146 (51,625)99 (11,881)129 (8,058)151 (7,411)167 (5,430)169 (5,168)----
2017-08-2495 (141,758)184 (102,054)149 (52,800)88 (11,761)130 (8,100)143 (7,891)164 (5,629)170 (5,125)198 (6,823)--
2017-08-3198 (137,055)189 (97,045)153 (50,595)94 (11,770)141 (7,651)145 (7,844)174 (5,434)187 (4,980)----
2017-09-0795 (145,076)190 (100,294)170 (45,010)86 (11,442)142 (8,003)148 (8,036)181 (5,216)182 (5,226)196 (7,226)--
2017-09-1498 (141,324)187 (105,237)171 (45,173)92 (11,438)145 (7,890)141 (8,039)177 (5,342)184 (5,079)177 (7,913)--
2017-09-21120 (129,845)192 (106,550)169 (46,130)89 (11,179)127 (8,509)131 (8,504)176 (5,217)173 (5,335)199 (7,666)192 (2,152)
2017-09-28101 (138,247)191 (102,309)168 (46,966)84 (11,436)151 (7,389)120 (9,041)170 (5,425)169 (5,492)198 (7,530)--
2017-10-0596 (138,467)191 (103,634)174 (46,328)90 (11,155)148 (7,424)119 (8,641)171 (5,819)167 (5,629)200 (7,611)--
2017-10-12103 (131,301)188 (101,006)173 (42,388)87 (11,102)144 (7,113)116 (8,521)182 (5,093)170 (5,462)----
2017-10-19107 (132,022)--187 (43,010)87 (10,405)154 (7,034)112 (8,810)174 (5,448)166 (5,500)----
2017-10-26113 (129,912)----91 (10,268)164 (6,814)111 (8,926)184 (5,259)177 (5,479)----
2017-11-02127 (112,444)----95 (10,310)167 (6,714)123 (8,703)200 (4,788)188 (5,074)----
2017-11-09123 (120,898)----89 (10,801)168 (6,287)117 (8,970)191 (5,189)182 (5,271)----
2017-11-16126 (121,663)----90 (10,960)176 (5,989)119 (9,451)198 (4,960)183 (5,203)----
2017-11-23131 (117,037)----104 (10,432)174 (6,407)125 (9,358)187 (5,043)------
2017-11-30145 (110,352)----102 (10,445)169 (6,662)135 (8,943)191 (4,520)198 (5,052)----
2017-12-07156 (108,926)----102 (10,590)--150 (8,506)193 (4,301)------
2017-12-14157 (105,750)----102 (10,264)199 (6,331)159 (8,177)--------
2017-12-21145 (109,944)----101 (10,677)--153 (8,400)--------
2017-12-28160 (102,564)----107 (9,991)--178 (7,769)--------
2018-01-04182 (99,600)----114 (9,426)--185 (7,507)--------
2018-01-11164 (101,976)----116 (9,267)--198 (7,416)--------
2018-01-18175 (99,439)----124 (9,387)------------
2018-01-25183 (99,786)----129 (9,266)------------
2018-02-01184 (96,840)----121 (9,180)------------
2018-02-08184 (96,856)----126 (9,179)------------
2018-02-15------129 (8,883)------------
2018-02-22198 (92,001)----125 (9,050)------------
2018-03-01------127 (8,880)------------
2018-03-08------131 (8,665)------------
2018-03-15------139 (8,202)------------
2018-03-22------148 (7,953)------------
2018-03-29------158 (8,191)------------
2018-04-05------168 (7,454)------------
2018-04-12------192 (7,140)------------
2018-04-19------185 (7,411)------------
2018-05-10------195 (6,240)------------
2018-05-17------191 (6,494)------------
2018-05-24------193 (6,833)------------
2018-05-31------199 (6,792)------------
2018-06-14------198 (6,805)------------
Date CL AR PE DO PY PA UY
Total 5,224,403 995,328 744,960 605,984 178,579 151,453 26,566
Peak 88 (22,256) 167 (16,078) 130 (8,270) 72 (1,831) 102 (1,495) 106 (1,319) 159 (1,290)
2018-03-24------156 (1,221)------
2018-03-25------170 (1,019)------
2018-03-26------155 (1,128)------
2018-03-27------161 (1,117)------
2018-03-28------155 (1,183)------
2018-03-29------165 (1,223)------
2018-03-30------178 (1,012)------
2018-03-31------172 (1,042)------
2018-04-01------159 (1,097)------
2018-04-02------166 (1,037)------
2018-04-04------167 (1,075)------
2018-04-05------161 (1,178)------
2018-04-06------187 (1,102)------
2018-04-07------184 (1,199)------
2018-04-08------183 (1,051)------
2018-04-13------198 (1,129)------
2018-04-14------191 (1,122)------
2018-04-15------166 (1,093)------
2018-04-16------181 (1,013)------
2018-04-17------191 (1,007)------
2018-04-19------190 (1,010)------
2018-05-18------195 (1,070)------
2018-05-19------194 (1,020)------
2018-05-23------184 (1,002)------
2018-05-26------197 (1,045)------
2018-05-30------190 (1,007)------
2018-05-31------191 (1,007)------
2018-06-02------192 (1,058)------
2018-06-08------198 (1,033)------
2018-06-13------185 (1,006)------
2018-06-27------196 (1,002)------