Spotify Chart History

Title: Unsteady
Artist: X Ambassadors

Show: Weekly · Daily | Positions · Streams · Both

Date US CA SE SG LV MT
Total 37,017,902 3,757,421 1,908,827 51,808 2,493 1,240
Peak 101 (1,360,861) 97 (146,389) 138 (141,416) 182 (17,574) 196 (2,493) 189 (1,240)
2016-06-09155 (970,536)----------
2016-06-16146 (972,915)----182 (16,859)----
2016-06-23155 (921,019)153 (93,675)--------
2016-06-30160 (929,396)133 (107,104)--------
2016-07-07166 (914,871)129 (105,170)--------
2016-07-14145 (959,241)111 (114,225)--182 (17,574)----
2016-07-21149 (959,928)110 (118,735)--189 (17,375)----
2016-07-28149 (992,537)111 (123,591)--------
2016-08-04133 (1,090,898)118 (114,654)--------
2016-08-11125 (1,135,552)116 (119,732)--------
2016-08-18117 (1,220,494)113 (130,634)--------
2016-08-25111 (1,288,526)112 (133,809)--------
2016-09-01113 (1,282,565)108 (136,935)--------
2016-09-08112 (1,260,636)112 (133,650)--------
2016-09-15101 (1,360,861)109 (138,391)--------
2016-09-22108 (1,343,763)114 (140,445)--------
2016-09-29107 (1,261,187)105 (143,353)--------
2016-10-06111 (1,258,710)103 (140,736)--------
2016-10-13104 (1,300,674)105 (138,457)176 (110,758)------
2016-10-20116 (1,224,232)97 (146,389)138 (129,757)------
2016-10-27116 (1,177,994)104 (138,015)168 (117,405)------
2016-11-03126 (1,113,211)107 (130,038)191 (112,608)------
2016-11-10131 (1,127,847)111 (132,092)139 (122,938)------
2016-11-17135 (1,196,652)128 (125,247)181 (113,649)------
2016-11-24134 (1,201,841)135 (123,373)--------
2016-12-01145 (1,109,108)165 (116,938)--------
2016-12-08168 (1,156,717)194 (114,434)--------
2016-12-15179 (1,158,268)----------
2016-12-22191 (1,099,674)----------
2016-12-29199 (1,001,885)----------
2017-01-05188 (1,000,415)174 (115,548)--------
2017-01-12191 (1,019,506)172 (120,301)162 (115,433)------
2017-01-19196 (1,006,243)182 (121,723)181 (112,372)------
2017-01-26--182 (121,545)193 (109,956)------
2017-02-02--196 (118,482)193 (111,899)------
2017-02-09----199 (107,895)--196 (2,493)--
2017-02-16----------189 (1,240)
2017-10-12----154 (130,794)------
2017-10-19----139 (141,416)------
2017-10-26----146 (138,094)------
2017-11-02----174 (120,092)------
2017-11-09----198 (113,761)------
Date Global US CA SE NO SG CZ TW
Total 41,028,216 34,331,656 3,708,496 2,075,795 117,752 28,725 20,870 4,301
Peak 179 (316,182) 93 (211,226) 90 (21,569) 95 (23,361) 132 (12,231) 163 (2,591) 162 (1,773) 192 (2,231)
2017-10-10------158 (17,297)--------
2017-10-11------144 (19,055)--------
2017-10-12------144 (19,051)--------
2017-10-13------182 (19,463)--------
2017-10-14------143 (20,479)--------
2017-10-15------135 (16,986)--------
2017-10-16------97 (23,361)----193 (1,387)--
2017-10-17------142 (18,732)--------
2017-10-18------132 (20,657)--------
2017-10-19------138 (20,164)--------
2017-10-20------177 (19,976)--------
2017-10-21------148 (20,240)--------
2017-10-22------149 (16,810)----193 (1,255)--
2017-10-23------119 (21,197)----184 (1,422)--
2017-10-24------152 (17,864)--------
2017-10-25------130 (20,493)--------
2017-10-26------141 (20,045)--------
2017-10-29------175 (14,964)----175 (1,273)--
2017-10-30------141 (18,926)----178 (1,423)--
2017-10-31------188 (15,590)--------
2017-11-01------151 (18,500)--------
2017-11-02------175 (17,231)--------
2017-11-06------167 (17,435)----167 (1,471)--
2017-11-08------181 (16,886)--------
2017-11-09------200 (16,267)--------
2017-11-22------200 (16,390)--------
2017-12-27------197 (15,519)--------
2018-01-03------187 (15,206)--------
2018-01-08------178 (16,158)--------
2018-01-15------179 (16,464)--------
2018-02-14--------144 (12,187)--168 (1,773)--