Spotify Chart History

Title: Not Easy
Artists: Alex Da Kid, X Ambassadors, Elle King, Wiz Khalifa

Show: Weekly · Daily | Positions · Streams · Both

Date DK SE FI IE LT SK
Total 155,461 127,028 54,461 29,938 2,119 2,080
Peak 149 (56,665) 152 (127,028) 153 (54,461) 183 (15,259) 133 (2,119) 150 (2,080)
2016-10-27149 (56,665)152 (127,028)153 (54,461)--133 (2,119)150 (2,080)
2016-11-03173 (51,089)----------
2016-11-10187 (47,707)----------
2016-11-17------200 (14,679)----
2016-11-24------183 (15,259)----
Date SE DK US FI IE DE FR BE NO PL CH AT CZ HU
Total 350,533 132,550 131,144 60,204 27,928 23,667 17,333 11,853 9,232 4,978 2,467 1,995 1,488 1,311
Peak 114 (24,858) 89 (12,279) 193 (131,144) 131 (8,964) 142 (2,606) 200 (23,667) 183 (17,333) 166 (2,640) 191 (9,232) 105 (4,978) 131 (2,467) 103 (1,995) 82 (1,488) 86 (1,311)
2016-11-06--167 (6,433)------------------------
2016-11-07--149 (7,878)------------------------
2016-11-08--193 (6,234)------------------------
2016-11-09--192 (5,863)----172 (1,908)------------------
2016-11-10177 (14,699)--------------------------
2016-11-15--------153 (2,482)------------------
2016-11-16--------142 (2,606)------------------
2016-11-17--------161 (2,386)------------------
2016-11-21--------192 (2,069)------------------
2016-11-22--------166 (2,285)------------------
2016-11-23--------150 (2,526)------------------
2016-11-24--------192 (2,363)------------------
2016-11-27--------196 (2,140)------------------
2016-11-28--------183 (2,391)------------------
2016-11-29--------183 (2,291)------------------
2016-11-30--------174 (2,481)------------------
2017-01-11--------------166 (2,602)------------
2017-01-12--------------190 (2,169)------------
2017-01-15159 (15,163)--------------------------
2017-01-17188 (14,648)--------------------------
2017-01-18--------------167 (2,640)------------
2017-01-22159 (15,326)--------------------------
2017-01-24198 (14,544)--------------------------
2017-01-25--------------169 (2,627)------------
2017-01-29158 (15,492)--------------------------
2017-01-30------------183 (17,333)--------------
2017-02-01200 (15,621)--------------------------
2017-02-07193 (14,628)--------------------------
2017-02-08155 (17,423)--------------------------
2017-04-15166 (20,228)--------------------------
2017-04-22190 (18,951)--------------------------