Spotify Chart History

Title: Solo
Artists: Clean Bandit, Demi Lovato, Seeb

Show: Weekly · Daily | Positions · Streams · Both

Date NO
Total 261,640
Peak 118 (97,469)
2018-08-09129 (97,469)
2018-08-16118 (91,071)
2018-08-23166 (73,100)
Date NO SE FI PL DK CZ HU RO LT
Total 264,430 19,102 9,721 8,998 8,329 2,476 2,400 1,047 1,045
Peak 66 (25,576) 182 (19,102) 130 (9,721) 197 (8,998) 185 (8,329) 123 (2,476) 88 (2,400) 111 (1,047) 76 (1,045)
2018-08-0372 (25,576)182 (19,102)130 (9,721)197 (8,998)185 (8,329)123 (2,476)88 (2,400)111 (1,047)76 (1,045)
2018-08-07189 (10,466)----------------
2018-08-08104 (15,057)----------------
2018-08-0966 (20,527)----------------
2018-08-10108 (15,414)----------------
2018-08-11127 (13,003)----------------
2018-08-12100 (12,642)----------------
2018-08-13117 (13,231)----------------
2018-08-14134 (11,904)----------------
2018-08-15137 (11,576)----------------
2018-08-16121 (12,527)----------------
2018-08-17160 (12,446)----------------
2018-08-18177 (10,415)----------------
2018-08-19163 (9,664)----------------
2018-08-20161 (10,335)----------------
2018-08-21162 (10,294)----------------
2018-08-22200 (9,230)----------------
2018-08-23166 (10,330)----------------
2018-08-24194 (11,101)----------------
2018-08-25179 (10,144)----------------
2018-08-26184 (8,548)----------------