Spotify Chart History

Title: Hasta Abajo
Artists: Kevin Roldan, Bryant Myers, Lyanno

Show: Weekly · Daily | Positions · Streams · Both

Date CL CO ES PY EC GT PA DO UY
Total 4,601,874 2,090,754 1,170,513 669,719 235,008 148,027 32,129 30,337 11,352
Peak 94 (264,306) 44 (159,818) 166 (242,521) 67 (36,422) 73 (42,101) 63 (34,692) 146 (11,306) 171 (10,427) 174 (11,352)
2019-08-0198 (238,569)51 (139,819)----73 (41,766)63 (34,692)162 (10,476)171 (10,293)--
2019-08-0894 (264,306)48 (153,299)182 (234,765)160 (16,748)76 (42,101)82 (29,228)146 (11,306)172 (10,427)174 (11,352)
2019-08-15105 (238,158)44 (159,818)166 (242,521)143 (17,921)103 (36,490)110 (24,742)162 (10,347)196 (9,617)--
2019-08-22114 (219,536)48 (149,932)171 (234,142)143 (17,923)137 (30,927)149 (20,969)------
2019-08-29125 (217,922)51 (132,496)180 (229,372)139 (19,026)151 (28,534)169 (19,453)------
2019-09-05131 (212,306)53 (120,199)193 (229,713)123 (20,111)163 (27,788)184 (18,943)------
2019-09-12119 (224,253)62 (101,568)--112 (23,807)176 (27,402)--------
2019-09-19155 (189,504)66 (95,637)--111 (23,253)----------
2019-09-26126 (203,189)73 (89,756)--112 (23,473)----------
2019-10-03119 (225,096)77 (87,102)--101 (25,274)----------
2019-10-10117 (229,187)78 (86,081)--93 (26,016)----------
2019-10-17120 (235,364)84 (81,487)--85 (28,056)----------
2019-10-24123 (169,660)85 (83,691)--85 (28,723)----------
2019-10-31127 (203,604)82 (85,270)--74 (32,352)----------
2019-11-07134 (196,186)101 (74,439)--77 (30,475)----------
2019-11-14142 (191,315)111 (71,783)--75 (31,176)----------
2019-11-21154 (198,091)118 (70,075)--74 (33,454)----------
2019-11-28142 (201,420)130 (61,836)--76 (32,876)----------
2019-12-05150 (200,761)136 (65,950)--77 (31,929)----------
2019-12-12180 (189,155)161 (63,301)--78 (31,787)----------
2019-12-19184 (182,857)168 (61,382)--76 (33,021)----------
2019-12-26198 (171,435)----74 (34,942)----------
2020-01-02------74 (35,726)----------
2020-01-09------73 (35,228)----------
2020-01-16--200 (55,833)--67 (36,422)----------
Date CL CO ES PY EC GT PA DO UY
Total 4,451,627 2,078,714 1,115,008 692,113 235,895 137,609 46,506 26,958 11,172
Peak 89 (39,574) 43 (25,276) 162 (37,015) 56 (5,584) 72 (6,734) 61 (5,213) 143 (1,686) 155 (1,742) 164 (1,765)
2019-12-23187 (25,879)184 (8,121)--80 (5,054)----------
2019-12-24------81 (5,497)----------
2019-12-25------88 (4,498)----------
2019-12-26189 (24,939)184 (7,767)--70 (4,930)----------
2019-12-27192 (25,701)177 (8,494)--74 (4,959)----------
2019-12-28193 (24,499)191 (8,171)--75 (5,383)----------
2019-12-29196 (21,978)190 (7,500)--74 (5,076)----------
2019-12-30--197 (7,744)--76 (5,091)----------
2019-12-31------77 (5,559)----------
2020-01-01------82 (4,542)----------
2020-01-02------75 (4,604)----------
2020-01-03------84 (4,710)----------
2020-01-04------74 (5,119)----------
2020-01-05------71 (4,923)----------
2020-01-06------72 (4,639)----------
2020-01-07--193 (7,629)--72 (4,886)----------
2020-01-08------72 (5,336)----------
2020-01-09------70 (5,341)----------
2020-01-10------74 (5,217)----------
2020-01-11------68 (5,539)----------
2020-01-12------67 (4,851)----------
2020-01-13--190 (7,939)--68 (4,641)----------
2020-01-14------70 (4,989)----------
2020-01-15------68 (5,543)----------
2020-01-16--188 (8,550)--68 (5,252)----------
2020-01-17------71 (5,460)----------
2020-01-18------71 (5,572)----------
2020-01-19------65 (5,193)----------
2020-01-20------64 (5,278)----------
2020-01-21------60 (5,584)----------
2020-01-22------56 (5,394)----------