Spotify Chart History

Title: Hasta Abajo
Artists: Kevin Roldan, Bryant Myers, Lyanno

Show: Weekly · Daily | Positions · Streams · Both

Date CL CO PY ES EC GT PA DO UY
Total 4,601,874 2,151,676 1,372,143 1,170,513 235,008 148,027 32,129 30,337 11,352
Peak 94 (264,306) 44 (159,818) 53 (46,708) 166 (242,521) 73 (42,101) 63 (34,692) 146 (11,306) 171 (10,427) 174 (11,352)
2019-08-0198 (238,569)51 (139,819)----73 (41,766)63 (34,692)162 (10,476)171 (10,293)--
2019-08-0894 (264,306)48 (153,299)160 (16,748)182 (234,765)76 (42,101)82 (29,228)146 (11,306)172 (10,427)174 (11,352)
2019-08-15105 (238,158)44 (159,818)143 (17,921)166 (242,521)103 (36,490)110 (24,742)162 (10,347)196 (9,617)--
2019-08-22114 (219,536)48 (149,932)143 (17,923)171 (234,142)137 (30,927)149 (20,969)------
2019-08-29125 (217,922)51 (132,496)139 (19,026)180 (229,372)151 (28,534)169 (19,453)------
2019-09-05131 (212,306)53 (120,199)123 (20,111)193 (229,713)163 (27,788)184 (18,943)------
2019-09-12119 (224,253)62 (101,568)112 (23,807)--176 (27,402)--------
2019-09-19155 (189,504)66 (95,637)111 (23,253)------------
2019-09-26126 (203,189)73 (89,756)112 (23,473)------------
2019-10-03119 (225,096)77 (87,102)101 (25,274)------------
2019-10-10117 (229,187)78 (86,081)93 (26,016)------------
2019-10-17120 (235,364)84 (81,487)85 (28,056)------------
2019-10-24123 (169,660)85 (83,691)85 (28,723)------------
2019-10-31127 (203,604)82 (85,270)74 (32,352)------------
2019-11-07134 (196,186)101 (74,439)77 (30,475)------------
2019-11-14142 (191,315)111 (71,783)75 (31,176)------------
2019-11-21154 (198,091)118 (70,075)74 (33,454)------------
2019-11-28142 (201,420)130 (61,836)76 (32,876)------------
2019-12-05150 (200,761)136 (65,950)77 (31,929)------------
2019-12-12180 (189,155)161 (63,301)78 (31,787)------------
2019-12-19184 (182,857)168 (61,382)76 (33,021)------------
2019-12-26198 (171,435)--74 (34,942)------------
2020-01-02----74 (35,726)------------
2020-01-09----73 (35,228)------------
2020-01-16--200 (55,833)67 (36,422)------------
2020-01-23----63 (38,256)------------
2020-01-30----59 (40,495)------------
2020-02-06--199 (60,922)56 (42,902)------------
2020-02-13----53 (46,708)------------
2020-02-20----57 (42,675)------------
2020-02-27----57 (40,060)------------
2020-03-05----76 (41,279)------------
2020-03-19----81 (33,832)------------
2020-03-26----90 (28,100)------------
2020-04-02----98 (27,084)------------
2020-04-09----103 (24,270)------------
2020-04-16----112 (22,410)------------
2020-04-23----107 (26,258)------------
2020-04-30----124 (25,515)------------
2020-05-07----134 (23,060)------------
2020-05-14----143 (22,503)------------
2020-05-21----148 (23,080)------------
2020-05-28----161 (21,730)------------
2020-06-04----172 (21,679)------------
2020-06-11----160 (23,186)------------
2020-06-18----159 (23,719)------------
2020-06-25----171 (23,633)------------
2020-07-02----168 (19,956)------------
2020-07-09----181 (20,034)------------
Date CL CO PY ES EC GT PA DO UY
Total 4,451,627 2,141,818 1,392,662 1,115,008 235,895 137,609 46,506 26,958 11,172
Peak 89 (39,574) 43 (25,276) 52 (7,357) 162 (37,015) 72 (6,734) 61 (5,213) 143 (1,686) 155 (1,742) 164 (1,765)
2020-06-10----169 (3,315)------------
2020-06-11----167 (3,492)------------
2020-06-12----168 (3,713)------------
2020-06-13----166 (3,241)------------
2020-06-14----175 (3,085)------------
2020-06-15----157 (3,280)------------
2020-06-16----168 (3,340)------------
2020-06-17----156 (3,435)------------
2020-06-18----172 (3,323)------------
2020-06-19----177 (3,462)------------
2020-06-20----177 (3,817)------------
2020-06-21----191 (3,525)------------
2020-06-22----155 (3,480)------------
2020-06-23----172 (3,238)------------
2020-06-24----167 (3,254)------------
2020-06-25----171 (2,857)------------
2020-06-26----186 (2,761)------------
2020-06-27----175 (2,993)------------
2020-06-28----174 (3,025)------------
2020-06-29----164 (2,951)------------
2020-06-30----174 (2,746)------------
2020-07-01----180 (2,734)------------
2020-07-02----171 (2,746)------------
2020-07-03----197 (2,752)------------
2020-07-04----191 (3,165)------------
2020-07-05----184 (3,338)------------
2020-07-06----180 (2,802)------------
2020-07-07----187 (2,547)------------
2020-07-08----181 (2,625)------------
2020-07-09----185 (2,805)------------
2020-07-13----188 (2,694)------------