Spotify Chart History

Title: Solo - Remix
Artists: Lary Over, Amenazzy, Farruko

Show: Weekly · Daily | Positions · Streams · Both

Date CL PY GT HN EC CO BO DO NI PA
Total 4,552,919 1,409,941 495,832 272,724 248,476 229,714 218,685 145,520 70,445 66,087
Peak 74 (186,350) 19 (58,754) 84 (15,673) 43 (15,440) 154 (15,458) 188 (35,427) 123 (8,727) 92 (11,642) 70 (4,265) 149 (8,227)
2017-12-21104 (140,676)84 (14,381)194 (8,497)58 (10,469)------131 (9,002)--200 (6,495)
2017-12-2874 (183,705)59 (21,510)143 (9,533)44 (14,924)169 (14,477)--159 (5,694)92 (11,642)--155 (7,520)
2018-01-0477 (182,960)57 (22,505)143 (9,575)43 (14,913)167 (14,332)--138 (6,365)96 (10,851)--155 (7,853)
2018-01-1176 (183,955)55 (24,353)140 (10,013)43 (14,617)154 (15,073)199 (28,825)123 (7,130)101 (10,360)--149 (8,044)
2018-01-1874 (186,350)23 (52,119)140 (10,466)45 (14,879)163 (15,441)188 (32,142)130 (6,798)105 (10,833)--157 (8,227)
2018-01-2578 (178,312)19 (58,342)136 (11,204)48 (15,440)165 (15,458)189 (33,517)124 (7,224)115 (9,981)--154 (7,952)
2018-02-0187 (166,106)19 (58,754)138 (11,305)54 (12,697)174 (14,646)199 (32,605)150 (6,474)120 (9,232)--167 (7,271)
2018-02-0895 (157,988)24 (56,740)137 (11,423)61 (11,156)167 (15,138)--142 (6,754)142 (8,666)--188 (6,804)
2018-02-15103 (146,409)25 (50,523)141 (11,675)66 (10,435)178 (14,383)--157 (5,787)164 (7,836)----
2018-02-22104 (142,337)31 (46,822)153 (11,456)74 (9,891)----176 (6,126)183 (7,232)198 (2,488)--
2018-03-01111 (135,458)32 (46,116)165 (11,184)83 (9,683)192 (13,989)194 (35,427)165 (6,488)192 (6,984)----
2018-03-08107 (142,083)35 (40,710)126 (12,090)71 (10,134)171 (14,567)188 (34,979)142 (6,878)173 (7,468)171 (2,711)195 (5,921)
2018-03-15119 (127,311)44 (26,211)143 (10,471)80 (8,684)194 (13,101)196 (32,219)171 (5,890)200 (6,557)153 (2,760)--
2018-03-22131 (118,736)47 (25,286)131 (10,866)88 (8,009)----180 (5,491)--134 (3,129)--
2018-03-29136 (117,808)49 (24,969)128 (10,656)94 (8,127)----184 (5,495)--92 (3,830)--
2018-04-05134 (112,905)49 (23,156)117 (11,148)104 (6,916)----171 (5,598)--82 (3,889)--
2018-04-12140 (111,214)50 (23,938)101 (14,113)119 (6,615)----186 (5,498)--79 (4,059)--
2018-04-19152 (105,415)57 (19,306)111 (13,475)119 (6,416)----191 (5,384)--89 (3,818)--
2018-04-26145 (112,441)61 (18,375)113 (13,782)133 (6,212)----188 (5,621)--83 (2,807)--
2018-05-03131 (113,042)52 (20,180)100 (14,258)128 (5,952)----179 (5,904)--70 (4,265)--
2018-05-10127 (119,337)36 (29,567)84 (15,673)132 (5,659)----185 (5,930)--81 (3,816)--
2018-05-17132 (116,281)37 (27,790)95 (15,027)138 (5,658)--------93 (2,988)--
2018-05-24121 (121,563)37 (26,660)98 (15,056)137 (5,602)193 (14,341)------91 (3,269)--
2018-05-31110 (124,834)36 (30,870)97 (14,927)141 (5,807)195 (14,485)--194 (5,364)194 (6,916)82 (3,376)--
2018-06-0795 (140,889)23 (36,510)86 (14,727)117 (6,415)186 (15,191)----174 (7,292)90 (3,025)--
2018-06-14105 (134,927)25 (35,855)87 (15,498)135 (5,994)196 (15,163)--195 (5,686)167 (7,467)99 (2,752)--
2018-06-21118 (132,557)29 (32,027)94 (14,524)156 (5,341)197 (14,203)--191 (5,321)187 (7,201)113 (2,494)--
2018-06-28130 (124,635)34 (31,006)99 (14,539)176 (5,013)198 (14,488)--189 (5,487)--116 (2,706)--
2018-07-05134 (119,644)44 (29,397)112 (13,644)184 (5,264)--------128 (2,688)--
2018-07-12144 (119,184)48 (26,059)125 (13,321)177 (5,052)----199 (5,344)--136 (2,511)--
2018-07-19167 (112,516)48 (28,655)122 (13,904)181 (5,208)----194 (5,716)--137 (2,506)--
2018-07-26177 (107,571)54 (20,126)135 (13,288)------200 (5,831)--171 (2,371)--
2018-08-02183 (106,000)66 (17,999)146 (12,830)----------199 (2,187)--
2018-08-09192 (107,770)69 (17,938)156 (12,115)--------------
2018-08-16--74 (17,745)153 (12,038)------173 (7,032)------
2018-08-23--79 (15,955)152 (11,986)177 (5,542)----180 (6,515)------
2018-08-30--85 (16,743)186 (11,417)------183 (6,940)------
2018-09-06--93 (15,036)170 (11,664)------189 (6,965)------
2018-09-13--96 (15,930)176 (11,426)------143 (8,727)------
2018-09-20--106 (14,565)182 (11,038)------174 (7,292)------
2018-09-27--114 (14,608)--------174 (7,119)------
2018-10-04--118 (14,239)--------188 (6,817)------
2018-10-11--123 (13,792)----------------
2018-10-18--122 (13,576)----------------
2018-10-25--122 (13,579)----------------
2018-11-01--122 (13,212)----------------
2018-11-08--125 (13,543)----------------
2018-11-15--132 (13,564)----------------
2018-11-22--140 (12,960)----------------
2018-11-29--134 (12,485)----------------
2018-12-06--134 (12,811)----------------
2018-12-13--128 (13,460)----------------
2018-12-20--127 (13,730)----------------
2018-12-27--159 (12,986)----------------
2019-01-03--161 (12,451)----------------
2019-01-10--163 (11,785)----------------
2019-01-17--144 (13,418)----------------
2019-01-24--169 (11,529)----------------
2019-01-31--180 (11,484)----------------
Date CL PY GT EC HN CO DO BO PA CR
Total 4,487,173 1,405,980 495,678 221,090 173,882 146,040 118,305 44,789 44,597 4,410
Peak 73 (28,964) 17 (9,059) 80 (2,439) 146 (2,439) 41 (2,404) 157 (5,830) 88 (1,883) 108 (1,360) 138 (1,270) 194 (2,455)
2019-01-03--152 (1,756)----------------
2019-01-04--167 (1,637)----------------
2019-01-05--158 (1,708)----------------
2019-01-06--152 (1,694)----------------
2019-01-07--163 (1,583)----------------
2019-01-08--170 (1,621)----------------
2019-01-09--162 (1,738)----------------
2019-01-10--162 (1,740)----------------
2019-01-11--143 (1,991)----------------
2019-01-12--129 (2,168)----------------
2019-01-13--130 (2,007)----------------
2019-01-14--143 (1,873)----------------
2019-01-15--154 (1,822)----------------
2019-01-16--154 (1,786)----------------
2019-01-17--166 (1,740)----------------
2019-01-18--163 (1,748)----------------
2019-01-19--163 (1,722)----------------
2019-01-20--178 (1,504)----------------
2019-01-21--180 (1,623)----------------
2019-01-22--162 (1,703)----------------
2019-01-23--176 (1,607)----------------
2019-01-24--178 (1,587)----------------
2019-01-25--168 (1,757)----------------
2019-01-26--164 (1,862)----------------
2019-01-27--189 (1,529)----------------
2019-01-29--179 (1,631)----------------
2019-01-30--192 (1,556)----------------
2019-01-31--182 (1,641)----------------
2019-02-01--196 (1,649)----------------
2019-02-02--198 (1,619)----------------
2019-02-03--197 (1,482)----------------