Spotify Chart History

Title: No Love
Artists: Trap Capos, Noriel, Prince Royce, Bryant Myers

Show: Weekly · Daily | Positions · Streams · Both

Date CL DO PE CO PA GT PY HN SV BO
Total 580,212 166,094 91,559 37,680 33,436 31,760 16,699 11,829 5,905 5,709
Peak 115 (133,957) 40 (24,305) 181 (47,383) 172 (37,680) 103 (9,893) 158 (11,510) 162 (8,877) 169 (6,038) 192 (5,905) 197 (5,709)
2018-02-22134 (124,053)51 (20,847)199 (44,176)172 (37,680)107 (9,519)171 (10,662)--180 (5,791)----
2018-03-01115 (133,957)40 (24,305)181 (47,383)--103 (9,893)158 (11,510)162 (8,877)169 (6,038)192 (5,905)197 (5,709)
2018-03-08131 (123,349)41 (23,002)----129 (8,016)177 (9,588)171 (7,822)------
2018-03-15150 (105,225)49 (19,571)----185 (6,008)----------
2018-03-22188 (93,628)66 (14,589)----------------
2018-03-29--106 (11,511)----------------
2018-04-05--127 (9,327)----------------
2018-04-12--157 (8,616)----------------
2018-04-19--112 (10,938)----------------
2018-04-26--143 (8,996)----------------
2018-05-03--157 (7,630)----------------
2018-05-10--177 (6,762)----------------
Date CL DO PE CO GT PA PY EC
Total 588,326 160,147 51,818 43,592 31,011 25,930 18,281 12,377
Peak 106 (20,372) 34 (3,920) 171 (7,378) 137 (6,569) 139 (1,863) 88 (1,589) 152 (1,396) 147 (2,325)
2018-04-05--123 (1,380)------------
2018-04-06--141 (1,380)------------
2018-04-07--155 (1,326)------------
2018-04-08--149 (1,228)------------
2018-04-09--159 (1,154)------------
2018-04-10--165 (1,163)------------
2018-04-11--154 (1,206)------------
2018-04-12--166 (1,125)------------
2018-04-13163 (15,642)85 (1,974)------------
2018-04-14190 (12,926)116 (1,693)------------
2018-04-15--122 (1,472)------------
2018-04-16183 (13,093)114 (1,396)------------
2018-04-17--112 (1,444)------------
2018-04-18--102 (1,504)------------
2018-04-19--113 (1,434)------------
2018-04-20--153 (1,373)------------
2018-04-21--151 (1,347)------------
2018-04-22--149 (1,200)------------
2018-04-23--144 (1,226)------------
2018-04-24--134 (1,278)------------
2018-04-25--140 (1,236)------------
2018-04-26--129 (1,333)------------
2018-04-27--145 (1,278)------------
2018-04-28--154 (1,252)------------
2018-04-29--161 (1,087)------------
2018-04-30--163 (1,040)------------
2018-05-02--160 (1,021)------------
2018-05-04--169 (1,032)------------
2018-05-05--166 (1,052)------------
2018-05-11--189 (1,004)------------
2018-05-12--186 (1,034)------------